ISO-10303-21;
HEADER;
/* Generated by software containing ST-Developer
 * from STEP Tools, Inc. (www.steptools.com) 
 */

FILE_DESCRIPTION(
/* description */ (''),
/* implementation_level */ '2;1');

FILE_NAME(
/* name */ '3D_CESM-0.37.stp',
/* time_stamp */ '2026-02-19T21:24:17+03:00',
/* author */ ('krute'),
/* organization */ (''),
/* preprocessor_version */ 'ST-DEVELOPER v20.1',
/* originating_system */ 'Autodesk Inventor 2026',
/* authorisation */ '');

FILE_SCHEMA (('CONFIG_CONTROL_DESIGN'));
ENDSEC;

DATA;
#10=MECHANICAL_DESIGN_GEOMETRIC_PRESENTATION_REPRESENTATION('',(#13),#487);
#11=SHAPE_REPRESENTATION_RELATIONSHIP('SRR','None',#494,#12);
#12=ADVANCED_BREP_SHAPE_REPRESENTATION('',(#14),#486);
#13=STYLED_ITEM('',(#503),#14);
#14=MANIFOLD_SOLID_BREP('\X2\04220432043504400434043E0435\X0\ \X2\04420435043B043E\X0\1',
#246);
#15=ELLIPSE('',#285,0.636396103456165,0.45);
#16=ELLIPSE('',#286,0.636396103456165,0.4500000005491);
#17=ELLIPSE('',#287,0.636396103456165,0.4500000005491);
#18=ELLIPSE('',#288,0.636396103456165,0.45);
#19=B_SPLINE_CURVE_WITH_KNOTS('',3,(#408,#409,#410,#411,#412,#413,#414,
#415,#416,#417),.UNSPECIFIED.,.F.,.F.,(4,2,2,2,4),(-0.0691902993764258,
-0.0519163337272392,-0.0346423680780525,-0.0173211840390262,0.),
 .UNSPECIFIED.);
#20=B_SPLINE_CURVE_WITH_KNOTS('',3,(#419,#420,#421,#422,#423,#424,#425,
#426,#427,#428),.UNSPECIFIED.,.F.,.F.,(4,2,2,2,4),(-0.276761197505703,-0.259440013466677,
-0.242118829427651,-0.224844863778464,-0.207570898129277),.UNSPECIFIED.);
#21=B_SPLINE_CURVE_WITH_KNOTS('',3,(#431,#432,#433,#434,#435,#436,#437,
#438,#439,#440),.UNSPECIFIED.,.F.,.F.,(4,2,2,2,4),(-0.207570898129277,-0.190296932480091,
-0.173022966830904,-0.155701782791878,-0.138380598752852),.UNSPECIFIED.);
#22=B_SPLINE_CURVE_WITH_KNOTS('',3,(#441,#442,#443,#444,#445,#446,#447,
#448,#449,#450),.UNSPECIFIED.,.F.,.F.,(4,2,2,2,4),(-0.138380598752852,-0.121059414713825,
-0.103738230674799,-0.0864642650256125,-0.0691902993764258),
 .UNSPECIFIED.);
#23=FACE_BOUND('',#84,.T.);
#24=FACE_BOUND('',#91,.T.);
#25=PLANE('',#280);
#26=PLANE('',#296);
#27=CONICAL_SURFACE('',#274,1.599999999374,1.05165021274825);
#28=CONICAL_SURFACE('',#276,2.099999999687,0.785398163313847);
#29=CONICAL_SURFACE('',#292,1.575000000945,1.04719755234345);
#30=CONICAL_SURFACE('',#298,1.150000000503,0.592770274732106);
#31=CONICAL_SURFACE('',#299,0.2390127421074,1.02407978824309);
#32=LINE('',#386,#45);
#33=LINE('',#390,#46);
#34=LINE('',#394,#47);
#35=LINE('',#398,#48);
#36=LINE('',#406,#49);
#37=LINE('',#429,#50);
#38=LINE('',#459,#51);
#39=LINE('',#464,#52);
#40=LINE('',#466,#53);
#41=LINE('',#471,#54);
#42=LINE('',#475,#55);
#43=LINE('',#480,#56);
#44=LINE('',#483,#57);
#45=VECTOR('',#312,1.25000000063);
#46=VECTOR('',#317,1.599999999374);
#47=VECTOR('',#322,2.099999999687);
#48=VECTOR('',#327,2.250000001257);
#49=VECTOR('',#336,0.9000000006339);
#50=VECTOR('',#337,0.9000000006339);
#51=VECTOR('',#346,0.45);
#52=VECTOR('',#353,0.4500000005491);
#53=VECTOR('',#354,0.4500000005491);
#54=VECTOR('',#361,1.575000000945);
#55=VECTOR('',#366,2.250000001257);
#56=VECTOR('',#373,1.150000000503);
#57=VECTOR('',#376,0.2390127421074);
#58=CYLINDRICAL_SURFACE('',#272,1.25000000063);
#59=CYLINDRICAL_SURFACE('',#278,2.250000001257);
#60=CYLINDRICAL_SURFACE('',#282,0.9000000006339);
#61=CYLINDRICAL_SURFACE('',#284,0.45);
#62=CYLINDRICAL_SURFACE('',#289,0.4500000005491);
#63=CYLINDRICAL_SURFACE('',#294,2.250000001257);
#64=FACE_OUTER_BOUND('',#78,.T.);
#65=FACE_OUTER_BOUND('',#79,.T.);
#66=FACE_OUTER_BOUND('',#80,.T.);
#67=FACE_OUTER_BOUND('',#81,.T.);
#68=FACE_OUTER_BOUND('',#82,.T.);
#69=FACE_OUTER_BOUND('',#83,.T.);
#70=FACE_OUTER_BOUND('',#85,.T.);
#71=FACE_OUTER_BOUND('',#86,.T.);
#72=FACE_OUTER_BOUND('',#87,.T.);
#73=FACE_OUTER_BOUND('',#88,.T.);
#74=FACE_OUTER_BOUND('',#89,.T.);
#75=FACE_OUTER_BOUND('',#90,.T.);
#76=FACE_OUTER_BOUND('',#92,.T.);
#77=FACE_OUTER_BOUND('',#93,.T.);
#78=EDGE_LOOP('',(#163,#164,#165));
#79=EDGE_LOOP('',(#166,#167,#168,#169));
#80=EDGE_LOOP('',(#170,#171,#172,#173));
#81=EDGE_LOOP('',(#174,#175,#176,#177));
#82=EDGE_LOOP('',(#178,#179,#180,#181));
#83=EDGE_LOOP('',(#182));
#84=EDGE_LOOP('',(#183));
#85=EDGE_LOOP('',(#184,#185,#186,#187,#188,#189,#190,#191,#192,#193));
#86=EDGE_LOOP('',(#194,#195,#196,#197,#198,#199,#200,#201,#202,#203));
#87=EDGE_LOOP('',(#204,#205,#206,#207,#208,#209,#210,#211,#212,#213));
#88=EDGE_LOOP('',(#214,#215,#216,#217));
#89=EDGE_LOOP('',(#218,#219,#220,#221));
#90=EDGE_LOOP('',(#222));
#91=EDGE_LOOP('',(#223));
#92=EDGE_LOOP('',(#224,#225,#226,#227));
#93=EDGE_LOOP('',(#228,#229,#230));
#94=CIRCLE('',#270,1.25000000063);
#95=CIRCLE('',#271,1.25000000063);
#96=CIRCLE('',#273,1.25000000063);
#97=CIRCLE('',#275,1.949999998118);
#98=CIRCLE('',#277,2.250000001257);
#99=CIRCLE('',#279,2.250000001257);
#100=CIRCLE('',#281,0.9000000006339);
#101=CIRCLE('',#283,0.9000000006339);
#102=CIRCLE('',#290,0.4500000005491);
#103=CIRCLE('',#291,0.4500000005491);
#104=CIRCLE('',#293,2.250000001257);
#105=CIRCLE('',#295,2.250000001257);
#106=CIRCLE('',#297,1.850000000456);
#107=VERTEX_POINT('',#379);
#108=VERTEX_POINT('',#381);
#109=VERTEX_POINT('',#384);
#110=VERTEX_POINT('',#388);
#111=VERTEX_POINT('',#392);
#112=VERTEX_POINT('',#396);
#113=VERTEX_POINT('',#400);
#114=VERTEX_POINT('',#403);
#115=VERTEX_POINT('',#405);
#116=VERTEX_POINT('',#407);
#117=VERTEX_POINT('',#418);
#118=VERTEX_POINT('',#430);
#119=VERTEX_POINT('',#452);
#120=VERTEX_POINT('',#453);
#121=VERTEX_POINT('',#455);
#122=VERTEX_POINT('',#457);
#123=VERTEX_POINT('',#462);
#124=VERTEX_POINT('',#465);
#125=VERTEX_POINT('',#469);
#126=VERTEX_POINT('',#473);
#127=VERTEX_POINT('',#477);
#128=VERTEX_POINT('',#482);
#129=EDGE_CURVE('',#107,#107,#94,.T.);
#130=EDGE_CURVE('',#107,#108,#95,.T.);
#131=EDGE_CURVE('',#109,#109,#96,.T.);
#132=EDGE_CURVE('',#109,#107,#32,.T.);
#133=EDGE_CURVE('',#110,#110,#97,.T.);
#134=EDGE_CURVE('',#110,#109,#33,.T.);
#135=EDGE_CURVE('',#111,#111,#98,.T.);
#136=EDGE_CURVE('',#111,#110,#34,.T.);
#137=EDGE_CURVE('',#112,#112,#99,.T.);
#138=EDGE_CURVE('',#112,#111,#35,.T.);
#139=EDGE_CURVE('',#113,#113,#100,.T.);
#140=EDGE_CURVE('',#114,#114,#101,.T.);
#141=EDGE_CURVE('',#114,#115,#36,.T.);
#142=EDGE_CURVE('',#115,#116,#19,.T.);
#143=EDGE_CURVE('',#116,#117,#20,.T.);
#144=EDGE_CURVE('',#117,#113,#37,.T.);
#145=EDGE_CURVE('',#117,#118,#21,.T.);
#146=EDGE_CURVE('',#118,#115,#22,.T.);
#147=EDGE_CURVE('',#119,#120,#15,.T.);
#148=EDGE_CURVE('',#121,#119,#16,.T.);
#149=EDGE_CURVE('',#122,#121,#17,.T.);
#150=EDGE_CURVE('',#122,#118,#38,.T.);
#151=EDGE_CURVE('',#120,#122,#18,.T.);
#152=EDGE_CURVE('',#123,#123,#102,.T.);
#153=EDGE_CURVE('',#123,#121,#39,.T.);
#154=EDGE_CURVE('',#120,#124,#40,.T.);
#155=EDGE_CURVE('',#124,#124,#103,.T.);
#156=EDGE_CURVE('',#125,#125,#104,.T.);
#157=EDGE_CURVE('',#125,#114,#41,.T.);
#158=EDGE_CURVE('',#126,#126,#105,.T.);
#159=EDGE_CURVE('',#126,#125,#42,.T.);
#160=EDGE_CURVE('',#127,#127,#106,.T.);
#161=EDGE_CURVE('',#124,#127,#43,.T.);
#162=EDGE_CURVE('',#128,#123,#44,.T.);
#163=ORIENTED_EDGE('',*,*,#129,.T.);
#164=ORIENTED_EDGE('',*,*,#130,.T.);
#165=ORIENTED_EDGE('',*,*,#130,.F.);
#166=ORIENTED_EDGE('',*,*,#131,.T.);
#167=ORIENTED_EDGE('',*,*,#132,.T.);
#168=ORIENTED_EDGE('',*,*,#129,.F.);
#169=ORIENTED_EDGE('',*,*,#132,.F.);
#170=ORIENTED_EDGE('',*,*,#133,.T.);
#171=ORIENTED_EDGE('',*,*,#134,.T.);
#172=ORIENTED_EDGE('',*,*,#131,.F.);
#173=ORIENTED_EDGE('',*,*,#134,.F.);
#174=ORIENTED_EDGE('',*,*,#135,.T.);
#175=ORIENTED_EDGE('',*,*,#136,.T.);
#176=ORIENTED_EDGE('',*,*,#133,.F.);
#177=ORIENTED_EDGE('',*,*,#136,.F.);
#178=ORIENTED_EDGE('',*,*,#137,.T.);
#179=ORIENTED_EDGE('',*,*,#138,.T.);
#180=ORIENTED_EDGE('',*,*,#135,.F.);
#181=ORIENTED_EDGE('',*,*,#138,.F.);
#182=ORIENTED_EDGE('',*,*,#137,.F.);
#183=ORIENTED_EDGE('',*,*,#139,.F.);
#184=ORIENTED_EDGE('',*,*,#140,.F.);
#185=ORIENTED_EDGE('',*,*,#141,.T.);
#186=ORIENTED_EDGE('',*,*,#142,.T.);
#187=ORIENTED_EDGE('',*,*,#143,.T.);
#188=ORIENTED_EDGE('',*,*,#144,.T.);
#189=ORIENTED_EDGE('',*,*,#139,.T.);
#190=ORIENTED_EDGE('',*,*,#144,.F.);
#191=ORIENTED_EDGE('',*,*,#145,.T.);
#192=ORIENTED_EDGE('',*,*,#146,.T.);
#193=ORIENTED_EDGE('',*,*,#141,.F.);
#194=ORIENTED_EDGE('',*,*,#147,.F.);
#195=ORIENTED_EDGE('',*,*,#148,.F.);
#196=ORIENTED_EDGE('',*,*,#149,.F.);
#197=ORIENTED_EDGE('',*,*,#150,.T.);
#198=ORIENTED_EDGE('',*,*,#145,.F.);
#199=ORIENTED_EDGE('',*,*,#143,.F.);
#200=ORIENTED_EDGE('',*,*,#142,.F.);
#201=ORIENTED_EDGE('',*,*,#146,.F.);
#202=ORIENTED_EDGE('',*,*,#150,.F.);
#203=ORIENTED_EDGE('',*,*,#151,.F.);
#204=ORIENTED_EDGE('',*,*,#152,.F.);
#205=ORIENTED_EDGE('',*,*,#153,.T.);
#206=ORIENTED_EDGE('',*,*,#148,.T.);
#207=ORIENTED_EDGE('',*,*,#147,.T.);
#208=ORIENTED_EDGE('',*,*,#154,.T.);
#209=ORIENTED_EDGE('',*,*,#155,.T.);
#210=ORIENTED_EDGE('',*,*,#154,.F.);
#211=ORIENTED_EDGE('',*,*,#151,.T.);
#212=ORIENTED_EDGE('',*,*,#149,.T.);
#213=ORIENTED_EDGE('',*,*,#153,.F.);
#214=ORIENTED_EDGE('',*,*,#156,.T.);
#215=ORIENTED_EDGE('',*,*,#157,.T.);
#216=ORIENTED_EDGE('',*,*,#140,.T.);
#217=ORIENTED_EDGE('',*,*,#157,.F.);
#218=ORIENTED_EDGE('',*,*,#158,.T.);
#219=ORIENTED_EDGE('',*,*,#159,.T.);
#220=ORIENTED_EDGE('',*,*,#156,.F.);
#221=ORIENTED_EDGE('',*,*,#159,.F.);
#222=ORIENTED_EDGE('',*,*,#158,.F.);
#223=ORIENTED_EDGE('',*,*,#160,.F.);
#224=ORIENTED_EDGE('',*,*,#155,.F.);
#225=ORIENTED_EDGE('',*,*,#161,.T.);
#226=ORIENTED_EDGE('',*,*,#160,.T.);
#227=ORIENTED_EDGE('',*,*,#161,.F.);
#228=ORIENTED_EDGE('',*,*,#162,.T.);
#229=ORIENTED_EDGE('',*,*,#152,.T.);
#230=ORIENTED_EDGE('',*,*,#162,.F.);
#231=SPHERICAL_SURFACE('',#269,1.25000000063);
#232=ADVANCED_FACE('',(#64),#231,.T.);
#233=ADVANCED_FACE('',(#65),#58,.T.);
#234=ADVANCED_FACE('',(#66),#27,.T.);
#235=ADVANCED_FACE('',(#67),#28,.T.);
#236=ADVANCED_FACE('',(#68),#59,.T.);
#237=ADVANCED_FACE('',(#69,#23),#25,.T.);
#238=ADVANCED_FACE('',(#70),#60,.T.);
#239=ADVANCED_FACE('',(#71),#61,.F.);
#240=ADVANCED_FACE('',(#72),#62,.F.);
#241=ADVANCED_FACE('',(#73),#29,.T.);
#242=ADVANCED_FACE('',(#74),#63,.T.);
#243=ADVANCED_FACE('',(#75,#24),#26,.T.);
#244=ADVANCED_FACE('',(#76),#30,.F.);
#245=ADVANCED_FACE('',(#77),#31,.F.);
#246=CLOSED_SHELL('',(#232,#233,#234,#235,#236,#237,#238,#239,#240,#241,
#242,#243,#244,#245));
#247=DERIVED_UNIT_ELEMENT(#250,1.);
#248=DERIVED_UNIT_ELEMENT(#489,-3.);
#249=DIMENSIONAL_EXPONENTS(0.,1.,0.,0.,0.,0.,0.);
#250=(
CONVERSION_BASED_UNIT('gram',#252)
MASS_UNIT()
NAMED_UNIT(#249)
);
#251=(
MASS_UNIT()
NAMED_UNIT(*)
SI_UNIT(.KILO.,.GRAM.)
);
#252=MASS_MEASURE_WITH_UNIT(MASS_MEASURE(0.001),#251);
#253=DERIVED_UNIT((#247,#248));
#254=MEASURE_REPRESENTATION_ITEM('density measure',
POSITIVE_RATIO_MEASURE(1.),#253);
#255=PROPERTY_DEFINITION_REPRESENTATION(#260,#257);
#256=PROPERTY_DEFINITION_REPRESENTATION(#261,#258);
#257=REPRESENTATION('material name',(#259),#486);
#258=REPRESENTATION('density',(#254),#486);
#259=DESCRIPTIVE_REPRESENTATION_ITEM('\X2\04220438043F043E0432044B0435\X0\',
'\X2\04220438043F043E0432044B0435\X0\');
#260=PROPERTY_DEFINITION('material property','material name',#496);
#261=PROPERTY_DEFINITION('material property','density of part',#496);
#262=DATE_TIME_ROLE('creation_date');
#263=CC_DESIGN_DATE_AND_TIME_ASSIGNMENT(#264,#262,(#496));
#264=DATE_AND_TIME(#265,#266);
#265=CALENDAR_DATE(2017,12,4);
#266=LOCAL_TIME(16,8,38.,#267);
#267=COORDINATED_UNIVERSAL_TIME_OFFSET(0,0,.BEHIND.);
#268=AXIS2_PLACEMENT_3D('',#377,#300,#301);
#269=AXIS2_PLACEMENT_3D('',#378,#302,#303);
#270=AXIS2_PLACEMENT_3D('',#380,#304,#305);
#271=AXIS2_PLACEMENT_3D('',#382,#306,#307);
#272=AXIS2_PLACEMENT_3D('',#383,#308,#309);
#273=AXIS2_PLACEMENT_3D('',#385,#310,#311);
#274=AXIS2_PLACEMENT_3D('',#387,#313,#314);
#275=AXIS2_PLACEMENT_3D('',#389,#315,#316);
#276=AXIS2_PLACEMENT_3D('',#391,#318,#319);
#277=AXIS2_PLACEMENT_3D('',#393,#320,#321);
#278=AXIS2_PLACEMENT_3D('',#395,#323,#324);
#279=AXIS2_PLACEMENT_3D('',#397,#325,#326);
#280=AXIS2_PLACEMENT_3D('',#399,#328,#329);
#281=AXIS2_PLACEMENT_3D('',#401,#330,#331);
#282=AXIS2_PLACEMENT_3D('',#402,#332,#333);
#283=AXIS2_PLACEMENT_3D('',#404,#334,#335);
#284=AXIS2_PLACEMENT_3D('',#451,#338,#339);
#285=AXIS2_PLACEMENT_3D('',#454,#340,#341);
#286=AXIS2_PLACEMENT_3D('',#456,#342,#343);
#287=AXIS2_PLACEMENT_3D('',#458,#344,#345);
#288=AXIS2_PLACEMENT_3D('',#460,#347,#348);
#289=AXIS2_PLACEMENT_3D('',#461,#349,#350);
#290=AXIS2_PLACEMENT_3D('',#463,#351,#352);
#291=AXIS2_PLACEMENT_3D('',#467,#355,#356);
#292=AXIS2_PLACEMENT_3D('',#468,#357,#358);
#293=AXIS2_PLACEMENT_3D('',#470,#359,#360);
#294=AXIS2_PLACEMENT_3D('',#472,#362,#363);
#295=AXIS2_PLACEMENT_3D('',#474,#364,#365);
#296=AXIS2_PLACEMENT_3D('',#476,#367,#368);
#297=AXIS2_PLACEMENT_3D('',#478,#369,#370);
#298=AXIS2_PLACEMENT_3D('',#479,#371,#372);
#299=AXIS2_PLACEMENT_3D('',#481,#374,#375);
#300=DIRECTION('axis',(0.,0.,1.));
#301=DIRECTION('refdir',(1.,0.,0.));
#302=DIRECTION('center_axis',(-6.12323399573676E-17,0.,1.));
#303=DIRECTION('ref_axis',(-1.,0.,0.));
#304=DIRECTION('center_axis',(0.,0.,-1.));
#305=DIRECTION('ref_axis',(-1.,0.,0.));
#306=DIRECTION('center_axis',(-1.22464679914735E-16,1.,0.));
#307=DIRECTION('ref_axis',(1.,1.22464679914735E-16,0.));
#308=DIRECTION('center_axis',(0.,0.,1.));
#309=DIRECTION('ref_axis',(-1.,0.,0.));
#310=DIRECTION('center_axis',(0.,0.,-1.));
#311=DIRECTION('ref_axis',(-1.,0.,0.));
#312=DIRECTION('',(0.,0.,-1.));
#313=DIRECTION('center_axis',(0.,0.,1.));
#314=DIRECTION('ref_axis',(-1.,0.,0.));
#315=DIRECTION('center_axis',(0.,0.,-1.));
#316=DIRECTION('ref_axis',(-1.,0.,0.));
#317=DIRECTION('',(-0.868243142223627,-1.0632911850058E-16,-0.49613893818329));
#318=DIRECTION('center_axis',(0.,0.,1.));
#319=DIRECTION('ref_axis',(-1.,0.,0.));
#320=DIRECTION('center_axis',(0.,0.,-1.));
#321=DIRECTION('ref_axis',(-1.,0.,0.));
#322=DIRECTION('',(-0.707106781127432,-8.65956056163098E-17,-0.707106781245663));
#323=DIRECTION('center_axis',(0.,0.,1.));
#324=DIRECTION('ref_axis',(-1.,0.,0.));
#325=DIRECTION('center_axis',(0.,0.,-1.));
#326=DIRECTION('ref_axis',(-1.,0.,0.));
#327=DIRECTION('',(0.,0.,-1.));
#328=DIRECTION('center_axis',(0.,0.,1.));
#329=DIRECTION('ref_axis',(-1.,0.,0.));
#330=DIRECTION('center_axis',(0.,0.,1.));
#331=DIRECTION('ref_axis',(-1.,0.,0.));
#332=DIRECTION('center_axis',(0.,0.,1.));
#333=DIRECTION('ref_axis',(-1.,0.,0.));
#334=DIRECTION('center_axis',(0.,0.,1.));
#335=DIRECTION('ref_axis',(-1.,0.,0.));
#336=DIRECTION('',(0.,0.,-1.));
#337=DIRECTION('',(0.,0.,-1.));
#338=DIRECTION('center_axis',(1.,0.,0.));
#339=DIRECTION('ref_axis',(0.,1.,0.));
#340=DIRECTION('center_axis',(0.707106780755134,0.,-0.707106781617961));
#341=DIRECTION('ref_axis',(0.707106781617961,0.,0.707106780755134));
#342=DIRECTION('center_axis',(0.707106780755134,0.,0.707106781617961));
#343=DIRECTION('ref_axis',(-0.707106781617961,0.,0.707106780755134));
#344=DIRECTION('center_axis',(0.707106780755134,0.,0.707106781617961));
#345=DIRECTION('ref_axis',(-0.707106781617961,0.,0.707106780755134));
#346=DIRECTION('',(1.,0.,0.));
#347=DIRECTION('center_axis',(0.707106780755134,0.,-0.707106781617961));
#348=DIRECTION('ref_axis',(0.707106781617961,0.,0.707106780755134));
#349=DIRECTION('center_axis',(0.,0.,1.));
#350=DIRECTION('ref_axis',(-1.,0.,0.));
#351=DIRECTION('center_axis',(0.,0.,1.));
#352=DIRECTION('ref_axis',(-1.,0.,0.));
#353=DIRECTION('',(0.,0.,1.));
#354=DIRECTION('',(0.,0.,1.));
#355=DIRECTION('center_axis',(0.,0.,1.));
#356=DIRECTION('ref_axis',(-1.,0.,0.));
#357=DIRECTION('center_axis',(0.,0.,1.));
#358=DIRECTION('ref_axis',(-1.,0.,0.));
#359=DIRECTION('center_axis',(0.,0.,-1.));
#360=DIRECTION('ref_axis',(-1.,0.,0.));
#361=DIRECTION('',(-0.866025404357867,-1.06057523942715E-16,-0.499999999006794));
#362=DIRECTION('center_axis',(0.,0.,1.));
#363=DIRECTION('ref_axis',(-1.,0.,0.));
#364=DIRECTION('center_axis',(0.,0.,-1.));
#365=DIRECTION('ref_axis',(-1.,0.,0.));
#366=DIRECTION('',(0.,0.,-1.));
#367=DIRECTION('center_axis',(0.,0.,1.));
#368=DIRECTION('ref_axis',(-1.,0.,0.));
#369=DIRECTION('center_axis',(0.,0.,1.));
#370=DIRECTION('ref_axis',(-1.,0.,0.));
#371=DIRECTION('center_axis',(0.,0.,1.));
#372=DIRECTION('ref_axis',(-1.,0.,0.));
#373=DIRECTION('',(0.558660819062343,6.84162183873737E-17,0.829396219695142));
#374=DIRECTION('center_axis',(0.,0.,1.));
#375=DIRECTION('ref_axis',(-1.,0.,0.));
#376=DIRECTION('',(0.854236146761294,1.04613756284719E-16,0.519885184984547));
#377=CARTESIAN_POINT('',(0.,0.,0.));
#378=CARTESIAN_POINT('Origin',(0.,0.,-11.25178956703));
#379=CARTESIAN_POINT('',(1.25000000063,0.,-11.25178956703));
#380=CARTESIAN_POINT('Origin',(0.,0.,-11.25178956703));
#381=CARTESIAN_POINT('',(7.6540424985286E-17,9.37349864636086E-33,-12.50178956766));
#382=CARTESIAN_POINT('Origin',(0.,0.,-11.25178956703));
#383=CARTESIAN_POINT('Origin',(0.,0.,0.));
#384=CARTESIAN_POINT('',(1.25000000063,0.,2.598210433347));
#385=CARTESIAN_POINT('Origin',(0.,0.,2.598210433347));
#386=CARTESIAN_POINT('',(1.25000000063,1.53080849970572E-16,0.));
#387=CARTESIAN_POINT('Origin',(0.,0.,2.798210432537));
#388=CARTESIAN_POINT('',(1.949999998118,0.,2.998210431726));
#389=CARTESIAN_POINT('Origin',(0.,0.,2.998210431726));
#390=CARTESIAN_POINT('',(1.599999999374,1.95943487786914E-16,2.798210432537));
#391=CARTESIAN_POINT('Origin',(0.,0.,3.148210433321));
#392=CARTESIAN_POINT('',(2.250000001257,0.,3.298210434915));
#393=CARTESIAN_POINT('Origin',(0.,0.,3.298210434915));
#394=CARTESIAN_POINT('',(2.099999999687,2.57175827782613E-16,3.148210433321));
#395=CARTESIAN_POINT('Origin',(0.,0.,0.));
#396=CARTESIAN_POINT('',(2.250000001257,0.,5.498210434876));
#397=CARTESIAN_POINT('Origin',(0.,0.,5.498210434876));
#398=CARTESIAN_POINT('',(2.250000001257,2.75545529962093E-16,0.));
#399=CARTESIAN_POINT('Origin',(0.,0.,5.498210434876));
#400=CARTESIAN_POINT('',(0.9000000006339,0.,5.498210434876));
#401=CARTESIAN_POINT('Origin',(0.,0.,5.498210434876));
#402=CARTESIAN_POINT('Origin',(0.,0.,0.));
#403=CARTESIAN_POINT('',(0.9000000006339,1.10218212000892E-16,9.607462707375));
#404=CARTESIAN_POINT('Origin',(0.,0.,9.607462707375));
#405=CARTESIAN_POINT('',(0.9000000006339,1.17410191010259E-17,6.54821043489));
#406=CARTESIAN_POINT('',(0.9000000006339,1.10218212000892E-16,0.));
#407=CARTESIAN_POINT('',(0.7794228641379,0.45,6.09821043489));
#408=CARTESIAN_POINT('Ctrl Pts',(0.9000000006339,-8.67361737988404E-17,
6.54821043489));
#409=CARTESIAN_POINT('Ctrl Pts',(0.9000000006339,0.0575798854972888,6.54821043489));
#410=CARTESIAN_POINT('Ctrl Pts',(0.893966386396197,0.11832528396763,6.53649419253175));
#411=CARTESIAN_POINT('Ctrl Pts',(0.872219179122293,0.228933341149462,6.49023472085724));
#412=CARTESIAN_POINT('Ctrl Pts',(0.856739975197804,0.278863501411815,6.45574303654608));
#413=CARTESIAN_POINT('Ctrl Pts',(0.826965211086395,0.357640122659624,6.37696641529827));
#414=CARTESIAN_POINT('Ctrl Pts',(0.810538206310486,0.392052919382379,6.32707249666676));
#415=CARTESIAN_POINT('Ctrl Pts',(0.786521446903591,0.438248513015292,6.21662280545587));
#416=CARTESIAN_POINT('Ctrl Pts',(0.779422864137959,0.45,6.15594771502009));
#417=CARTESIAN_POINT('Ctrl Pts',(0.779422864137959,0.45,6.09821043489));
#418=CARTESIAN_POINT('',(0.9000000006339,6.3782723380341E-17,5.64821043489));
#419=CARTESIAN_POINT('Ctrl Pts',(0.779422864137959,0.45,6.09821043489));
#420=CARTESIAN_POINT('Ctrl Pts',(0.779422864137959,0.45,6.04047315475991));
#421=CARTESIAN_POINT('Ctrl Pts',(0.786521446903591,0.438248513015292,5.97979806432413));
#422=CARTESIAN_POINT('Ctrl Pts',(0.810538206310486,0.392052919382379,5.86934837311324));
#423=CARTESIAN_POINT('Ctrl Pts',(0.826965211086395,0.357640122659625,5.81945445448173));
#424=CARTESIAN_POINT('Ctrl Pts',(0.856739975197804,0.278863501411815,5.74067783323392));
#425=CARTESIAN_POINT('Ctrl Pts',(0.872219179122293,0.228933341149463,5.70618614892276));
#426=CARTESIAN_POINT('Ctrl Pts',(0.893966386396197,0.118325283967631,5.65992667724825));
#427=CARTESIAN_POINT('Ctrl Pts',(0.9000000006339,0.0575798854972889,5.64821043489));
#428=CARTESIAN_POINT('Ctrl Pts',(0.9000000006339,1.73472347597681E-17,5.64821043489));
#429=CARTESIAN_POINT('',(0.9000000006339,1.10218212000892E-16,0.));
#430=CARTESIAN_POINT('',(0.779422864137959,-0.45,6.09821043489));
#431=CARTESIAN_POINT('Ctrl Pts',(0.9000000006339,1.73472347597898E-17,5.64821043489));
#432=CARTESIAN_POINT('Ctrl Pts',(0.9000000006339,-0.0575798854972889,5.64821043489));
#433=CARTESIAN_POINT('Ctrl Pts',(0.893966386396197,-0.118325283967631,5.65992667724825));
#434=CARTESIAN_POINT('Ctrl Pts',(0.872219179122292,-0.228933341149462,5.70618614892276));
#435=CARTESIAN_POINT('Ctrl Pts',(0.856739975197804,-0.278863501411815,5.74067783323392));
#436=CARTESIAN_POINT('Ctrl Pts',(0.826965211086395,-0.357640122659625,5.81945445448173));
#437=CARTESIAN_POINT('Ctrl Pts',(0.810538206310485,-0.39205291938238,5.86934837311324));
#438=CARTESIAN_POINT('Ctrl Pts',(0.786521446903591,-0.438248513015293,5.97979806432414));
#439=CARTESIAN_POINT('Ctrl Pts',(0.779422864137959,-0.45,6.04047315475991));
#440=CARTESIAN_POINT('Ctrl Pts',(0.779422864137959,-0.45,6.09821043489));
#441=CARTESIAN_POINT('Ctrl Pts',(0.779422864137959,-0.45,6.09821043489));
#442=CARTESIAN_POINT('Ctrl Pts',(0.779422864137959,-0.45,6.15594771502009));
#443=CARTESIAN_POINT('Ctrl Pts',(0.786521446903591,-0.438248513015293,6.21662280545587));
#444=CARTESIAN_POINT('Ctrl Pts',(0.810538206310485,-0.39205291938238,6.32707249666676));
#445=CARTESIAN_POINT('Ctrl Pts',(0.826965211086395,-0.357640122659625,6.37696641529827));
#446=CARTESIAN_POINT('Ctrl Pts',(0.856739975197804,-0.278863501411815,6.45574303654608));
#447=CARTESIAN_POINT('Ctrl Pts',(0.872219179122292,-0.228933341149462,6.49023472085724));
#448=CARTESIAN_POINT('Ctrl Pts',(0.893966386396197,-0.118325283967631,6.53649419253175));
#449=CARTESIAN_POINT('Ctrl Pts',(0.9000000006339,-0.057579885497289,6.54821043489));
#450=CARTESIAN_POINT('Ctrl Pts',(0.9000000006339,-8.67361737988404E-17,
6.54821043489));
#451=CARTESIAN_POINT('Origin',(0.,0.,6.09821043489));
#452=CARTESIAN_POINT('',(1.35682780176978E-9,0.45000000027455,6.09821043489));
#453=CARTESIAN_POINT('',(0.4500000005491,5.51091060288762E-17,6.54821043489));
#454=CARTESIAN_POINT('Origin',(0.,0.,6.09821043489));
#455=CARTESIAN_POINT('',(0.4500000005491,5.51091060288762E-17,5.64821043489));
#456=CARTESIAN_POINT('Origin',(0.,0.,6.09821043489));
#457=CARTESIAN_POINT('',(1.35682780176978E-9,-0.45000000027455,6.09821043489));
#458=CARTESIAN_POINT('Origin',(0.,0.,6.09821043489));
#459=CARTESIAN_POINT('',(0.,-0.45,6.09821043489));
#460=CARTESIAN_POINT('Origin',(0.,0.,6.09821043489));
#461=CARTESIAN_POINT('Origin',(0.,0.,0.));
#462=CARTESIAN_POINT('',(0.4500000005491,5.51091060288763E-17,4.998210434874));
#463=CARTESIAN_POINT('Origin',(0.,0.,4.998210434874));
#464=CARTESIAN_POINT('',(0.4500000005491,5.51091060288763E-17,0.));
#465=CARTESIAN_POINT('',(0.4500000005491,0.,10.41974946559));
#466=CARTESIAN_POINT('',(0.4500000005491,5.51091060288763E-17,0.));
#467=CARTESIAN_POINT('Origin',(0.,0.,10.41974946559));
#468=CARTESIAN_POINT('Origin',(0.,0.,9.997174138225));
#469=CARTESIAN_POINT('',(2.250000001257,0.,10.38688556908));
#470=CARTESIAN_POINT('Origin',(0.,0.,10.38688556908));
#471=CARTESIAN_POINT('',(1.575000000945,1.92881870981437E-16,9.997174138225));
#472=CARTESIAN_POINT('Origin',(0.,0.,0.));
#473=CARTESIAN_POINT('',(2.250000001257,0.,12.49821043489));
#474=CARTESIAN_POINT('Origin',(0.,0.,12.49821043489));
#475=CARTESIAN_POINT('',(2.250000001257,2.75545529962093E-16,0.));
#476=CARTESIAN_POINT('Origin',(0.,0.,12.49821043489));
#477=CARTESIAN_POINT('',(1.850000000456,0.,12.49821043489));
#478=CARTESIAN_POINT('Origin',(0.,0.,12.49821043489));
#479=CARTESIAN_POINT('Origin',(0.,0.,11.45897995024));
#480=CARTESIAN_POINT('',(1.150000000503,1.40834381963545E-16,11.45897995024));
#481=CARTESIAN_POINT('Origin',(0.,0.,4.869804314037));
#482=CARTESIAN_POINT('',(0.,0.,4.724341980097));
#483=CARTESIAN_POINT('',(0.2390127421074,2.92706189577259E-17,4.869804314037));
#484=UNCERTAINTY_MEASURE_WITH_UNIT(LENGTH_MEASURE(0.01),#488,
'DISTANCE_ACCURACY_VALUE',
'Maximum model space distance between geometric entities at asserted c
onnectivities');
#485=UNCERTAINTY_MEASURE_WITH_UNIT(LENGTH_MEASURE(0.01),#488,
'DISTANCE_ACCURACY_VALUE',
'Maximum model space distance between geometric entities at asserted c
onnectivities');
#486=(
GEOMETRIC_REPRESENTATION_CONTEXT(3)
GLOBAL_UNCERTAINTY_ASSIGNED_CONTEXT((#484))
GLOBAL_UNIT_ASSIGNED_CONTEXT((#488,#490,#491))
REPRESENTATION_CONTEXT('','3D')
);
#487=(
GEOMETRIC_REPRESENTATION_CONTEXT(3)
GLOBAL_UNCERTAINTY_ASSIGNED_CONTEXT((#485))
GLOBAL_UNIT_ASSIGNED_CONTEXT((#488,#490,#491))
REPRESENTATION_CONTEXT('','3D')
);
#488=(
LENGTH_UNIT()
NAMED_UNIT(*)
SI_UNIT(.MILLI.,.METRE.)
);
#489=(
LENGTH_UNIT()
NAMED_UNIT(*)
SI_UNIT(.CENTI.,.METRE.)
);
#490=(
NAMED_UNIT(*)
PLANE_ANGLE_UNIT()
SI_UNIT($,.RADIAN.)
);
#491=(
NAMED_UNIT(*)
SI_UNIT($,.STERADIAN.)
SOLID_ANGLE_UNIT()
);
#492=SHAPE_DEFINITION_REPRESENTATION(#493,#494);
#493=PRODUCT_DEFINITION_SHAPE('',$,#496);
#494=SHAPE_REPRESENTATION('',(#268),#486);
#495=DESIGN_CONTEXT('part definition',#500,'design');
#496=PRODUCT_DEFINITION('3D_1010191100301_CESM-0.37_V1.0',
'3D_1010191100301_CESM-0.37_V1.0',#497,#495);
#497=PRODUCT_DEFINITION_FORMATION('2LAST_VERSION',$,#502);
#498=PRODUCT_RELATED_PRODUCT_CATEGORY('3D_1010191100301_CESM-0.37_V1.0',
'3D_1010191100301_CESM-0.37_V1.0',(#502));
#499=APPLICATION_PROTOCOL_DEFINITION('international standard',
'ap203_configuration_controlled_3d_design_of_mechanical_parts_and_asse
mblies_mim_lf',2004,#500);
#500=APPLICATION_CONTEXT(
'Configuration Controlled 3D Design of Mechanical Parts and Assemblies');
#501=MECHANICAL_CONTEXT('part definition',#500,'mechanical');
#502=PRODUCT('3D_1010191100301_CESM-0.37_V1.0',
'3D_1010191100301_CESM-0.37_V1.0',$,(#501));
#503=PRESENTATION_STYLE_ASSIGNMENT((#504));
#504=SURFACE_STYLE_USAGE(.BOTH.,#507);
#505=SURFACE_STYLE_RENDERING_WITH_PROPERTIES($,#511,(#506));
#506=SURFACE_STYLE_TRANSPARENT(0.);
#507=SURFACE_SIDE_STYLE('',(#508,#505));
#508=SURFACE_STYLE_FILL_AREA(#509);
#509=FILL_AREA_STYLE('',(#510));
#510=FILL_AREA_STYLE_COLOUR('',#511);
#511=COLOUR_RGB('',0.749019607843137,0.749019607843137,0.749019607843137);
ENDSEC;
END-ISO-10303-21;
