ISO-10303-21;
HEADER;
/* Generated by software containing ST-Developer
 * from STEP Tools, Inc. (www.steptools.com) 
 */

FILE_DESCRIPTION(
/* description */ (''),
/* implementation_level */ '2;1');

FILE_NAME(
/* name */ '3D_CESM-0.50.stp',
/* time_stamp */ '2026-02-19T22:26:31+03:00',
/* author */ ('krute'),
/* organization */ (''),
/* preprocessor_version */ 'ST-DEVELOPER v20.1',
/* originating_system */ 'Autodesk Inventor 2026',
/* authorisation */ '');

FILE_SCHEMA (('CONFIG_CONTROL_DESIGN'));
ENDSEC;

DATA;
#10=MECHANICAL_DESIGN_GEOMETRIC_PRESENTATION_REPRESENTATION('',(#13),#512);
#11=SHAPE_REPRESENTATION_RELATIONSHIP('SRR','None',#519,#12);
#12=ADVANCED_BREP_SHAPE_REPRESENTATION('',(#14),#511);
#13=STYLED_ITEM('',(#528),#14);
#14=MANIFOLD_SOLID_BREP('\X2\04220432043504400434043E0435\X0\ \X2\04420435043B043E\X0\1',
#241);
#15=B_SPLINE_CURVE_WITH_KNOTS('',3,(#391,#392,#393,#394,#395,#396,#397,
#398,#399,#400),.UNSPECIFIED.,.F.,.F.,(4,2,2,2,4),(-0.0684205143218246,
-0.0513200411577006,-0.0342195679935766,-0.0171097839967883,0.),
 .UNSPECIFIED.);
#16=B_SPLINE_CURVE_WITH_KNOTS('',3,(#402,#403,#404,#405,#406,#407,#408,
#409,#410,#411),.UNSPECIFIED.,.F.,.F.,(4,2,2,2,4),(-0.273682057287298,-0.25657227329051,
-0.239462489293722,-0.222362016129598,-0.205261542965474),.UNSPECIFIED.);
#17=B_SPLINE_CURVE_WITH_KNOTS('',3,(#414,#415,#416,#417,#418,#419,#420,
#421,#422,#423),.UNSPECIFIED.,.F.,.F.,(4,2,2,2,4),(-0.205261542965474,-0.18816106980135,
-0.171060596637226,-0.153950812640437,-0.136841028643649),.UNSPECIFIED.);
#18=B_SPLINE_CURVE_WITH_KNOTS('',3,(#424,#425,#426,#427,#428,#429,#430,
#431,#432,#433),.UNSPECIFIED.,.F.,.F.,(4,2,2,2,4),(-0.136841028643649,-0.119731244646861,
-0.102621460650073,-0.0855209874859486,-0.0684205143218246),
 .UNSPECIFIED.);
#19=B_SPLINE_CURVE_WITH_KNOTS('',3,(#437,#438,#439,#440,#441,#442,#443,
#444,#445,#446,#447,#448,#449,#450,#451,#452,#453,#454,#455,#456,#457,#458,
#459),.UNSPECIFIED.,.F.,.F.,(4,2,2,2,2,3,2,2,2,2,4),(0.216993778316646,
0.234828019168836,0.252662260021025,0.270993648888277,0.280159343321902,
0.289325037755528,0.298490732189154,0.30765642662278,0.325987815490032,
0.343822056342221,0.36165629719441),.UNSPECIFIED.);
#20=B_SPLINE_CURVE_WITH_KNOTS('',3,(#461,#462,#463,#464,#465,#466,#467,
#468,#469,#470,#471,#472),.UNSPECIFIED.,.F.,.F.,(4,2,2,2,2,4),(0.0723312594388821,
0.0901655002910713,0.107999741143261,0.126331130010512,0.135496824444138,
0.144662518877764),.UNSPECIFIED.);
#21=B_SPLINE_CURVE_WITH_KNOTS('',3,(#474,#475,#476,#477,#478,#479,#480,
#481,#482,#483,#484,#485),.UNSPECIFIED.,.F.,.F.,(4,2,2,2,2,4),(0.144662518877764,
0.15382821331139,0.162993907745016,0.181325296612268,0.199159537464457,
0.216993778316646),.UNSPECIFIED.);
#22=FACE_BOUND('',#83,.T.);
#23=FACE_BOUND('',#89,.T.);
#24=PLANE('',#275);
#25=PLANE('',#284);
#26=CONICAL_SURFACE('',#269,1.599999999374,1.05165021274825);
#27=CONICAL_SURFACE('',#271,2.099999999687,0.785398163313847);
#28=CONICAL_SURFACE('',#280,1.775000000945,1.04719755234345);
#29=CONICAL_SURFACE('',#286,1.212500000503,0.592770274732106);
#30=CONICAL_SURFACE('',#290,0.3015127421074,1.02407978824309);
#31=LINE('',#369,#44);
#32=LINE('',#373,#45);
#33=LINE('',#377,#46);
#34=LINE('',#381,#47);
#35=LINE('',#389,#48);
#36=LINE('',#412,#49);
#37=LINE('',#473,#50);
#38=LINE('',#489,#51);
#39=LINE('',#493,#52);
#40=LINE('',#500,#53);
#41=LINE('',#504,#54);
#42=LINE('',#505,#55);
#43=LINE('',#508,#56);
#44=VECTOR('',#303,1.25000000063);
#45=VECTOR('',#308,1.599999999374);
#46=VECTOR('',#313,2.099999999687);
#47=VECTOR('',#318,2.250000001257);
#48=VECTOR('',#327,1.300000000634);
#49=VECTOR('',#328,1.300000000634);
#50=VECTOR('',#331,0.45);
#51=VECTOR('',#336,1.775000000945);
#52=VECTOR('',#341,2.250000001257);
#53=VECTOR('',#350,1.212500000503);
#54=VECTOR('',#355,0.5750000005491);
#55=VECTOR('',#356,0.5750000005491);
#56=VECTOR('',#359,0.3015127421074);
#57=CYLINDRICAL_SURFACE('',#267,1.25000000063);
#58=CYLINDRICAL_SURFACE('',#273,2.250000001257);
#59=CYLINDRICAL_SURFACE('',#277,1.300000000634);
#60=CYLINDRICAL_SURFACE('',#279,0.45);
#61=CYLINDRICAL_SURFACE('',#282,2.250000001257);
#62=CYLINDRICAL_SURFACE('',#288,0.5750000005491);
#63=FACE_OUTER_BOUND('',#77,.T.);
#64=FACE_OUTER_BOUND('',#78,.T.);
#65=FACE_OUTER_BOUND('',#79,.T.);
#66=FACE_OUTER_BOUND('',#80,.T.);
#67=FACE_OUTER_BOUND('',#81,.T.);
#68=FACE_OUTER_BOUND('',#82,.T.);
#69=FACE_OUTER_BOUND('',#84,.T.);
#70=FACE_OUTER_BOUND('',#85,.T.);
#71=FACE_OUTER_BOUND('',#86,.T.);
#72=FACE_OUTER_BOUND('',#87,.T.);
#73=FACE_OUTER_BOUND('',#88,.T.);
#74=FACE_OUTER_BOUND('',#90,.T.);
#75=FACE_OUTER_BOUND('',#91,.T.);
#76=FACE_OUTER_BOUND('',#92,.T.);
#77=EDGE_LOOP('',(#160,#161,#162));
#78=EDGE_LOOP('',(#163,#164,#165,#166));
#79=EDGE_LOOP('',(#167,#168,#169,#170));
#80=EDGE_LOOP('',(#171,#172,#173,#174));
#81=EDGE_LOOP('',(#175,#176,#177,#178));
#82=EDGE_LOOP('',(#179));
#83=EDGE_LOOP('',(#180));
#84=EDGE_LOOP('',(#181,#182,#183,#184,#185,#186,#187,#188,#189,#190));
#85=EDGE_LOOP('',(#191,#192,#193,#194,#195,#196,#197,#198,#199));
#86=EDGE_LOOP('',(#200,#201,#202,#203));
#87=EDGE_LOOP('',(#204,#205,#206,#207));
#88=EDGE_LOOP('',(#208));
#89=EDGE_LOOP('',(#209));
#90=EDGE_LOOP('',(#210,#211,#212,#213));
#91=EDGE_LOOP('',(#214,#215,#216,#217,#218,#219,#220,#221,#222));
#92=EDGE_LOOP('',(#223,#224,#225));
#93=CIRCLE('',#265,1.25000000063);
#94=CIRCLE('',#266,1.25000000063);
#95=CIRCLE('',#268,1.25000000063);
#96=CIRCLE('',#270,1.949999998118);
#97=CIRCLE('',#272,2.250000001257);
#98=CIRCLE('',#274,2.250000001257);
#99=CIRCLE('',#276,1.300000000634);
#100=CIRCLE('',#278,1.300000000634);
#101=CIRCLE('',#281,2.250000001257);
#102=CIRCLE('',#283,2.250000001257);
#103=CIRCLE('',#285,1.850000000456);
#104=CIRCLE('',#287,0.5750000005491);
#105=CIRCLE('',#289,0.5750000005491);
#106=VERTEX_POINT('',#362);
#107=VERTEX_POINT('',#364);
#108=VERTEX_POINT('',#367);
#109=VERTEX_POINT('',#371);
#110=VERTEX_POINT('',#375);
#111=VERTEX_POINT('',#379);
#112=VERTEX_POINT('',#383);
#113=VERTEX_POINT('',#386);
#114=VERTEX_POINT('',#388);
#115=VERTEX_POINT('',#390);
#116=VERTEX_POINT('',#401);
#117=VERTEX_POINT('',#413);
#118=VERTEX_POINT('',#435);
#119=VERTEX_POINT('',#436);
#120=VERTEX_POINT('',#460);
#121=VERTEX_POINT('',#487);
#122=VERTEX_POINT('',#491);
#123=VERTEX_POINT('',#495);
#124=VERTEX_POINT('',#498);
#125=VERTEX_POINT('',#502);
#126=VERTEX_POINT('',#507);
#127=EDGE_CURVE('',#106,#106,#93,.T.);
#128=EDGE_CURVE('',#106,#107,#94,.T.);
#129=EDGE_CURVE('',#108,#108,#95,.T.);
#130=EDGE_CURVE('',#108,#106,#31,.T.);
#131=EDGE_CURVE('',#109,#109,#96,.T.);
#132=EDGE_CURVE('',#109,#108,#32,.T.);
#133=EDGE_CURVE('',#110,#110,#97,.T.);
#134=EDGE_CURVE('',#110,#109,#33,.T.);
#135=EDGE_CURVE('',#111,#111,#98,.T.);
#136=EDGE_CURVE('',#111,#110,#34,.T.);
#137=EDGE_CURVE('',#112,#112,#99,.T.);
#138=EDGE_CURVE('',#113,#113,#100,.T.);
#139=EDGE_CURVE('',#113,#114,#35,.T.);
#140=EDGE_CURVE('',#114,#115,#15,.T.);
#141=EDGE_CURVE('',#115,#116,#16,.T.);
#142=EDGE_CURVE('',#116,#112,#36,.T.);
#143=EDGE_CURVE('',#116,#117,#17,.T.);
#144=EDGE_CURVE('',#117,#114,#18,.T.);
#145=EDGE_CURVE('',#118,#119,#19,.F.);
#146=EDGE_CURVE('',#120,#118,#20,.F.);
#147=EDGE_CURVE('',#120,#117,#37,.T.);
#148=EDGE_CURVE('',#119,#120,#21,.F.);
#149=EDGE_CURVE('',#121,#121,#101,.T.);
#150=EDGE_CURVE('',#121,#113,#38,.T.);
#151=EDGE_CURVE('',#122,#122,#102,.T.);
#152=EDGE_CURVE('',#122,#121,#39,.T.);
#153=EDGE_CURVE('',#123,#123,#103,.T.);
#154=EDGE_CURVE('',#124,#124,#104,.T.);
#155=EDGE_CURVE('',#124,#123,#40,.T.);
#156=EDGE_CURVE('',#125,#125,#105,.T.);
#157=EDGE_CURVE('',#125,#118,#41,.T.);
#158=EDGE_CURVE('',#119,#124,#42,.T.);
#159=EDGE_CURVE('',#126,#125,#43,.T.);
#160=ORIENTED_EDGE('',*,*,#127,.T.);
#161=ORIENTED_EDGE('',*,*,#128,.T.);
#162=ORIENTED_EDGE('',*,*,#128,.F.);
#163=ORIENTED_EDGE('',*,*,#129,.T.);
#164=ORIENTED_EDGE('',*,*,#130,.T.);
#165=ORIENTED_EDGE('',*,*,#127,.F.);
#166=ORIENTED_EDGE('',*,*,#130,.F.);
#167=ORIENTED_EDGE('',*,*,#131,.T.);
#168=ORIENTED_EDGE('',*,*,#132,.T.);
#169=ORIENTED_EDGE('',*,*,#129,.F.);
#170=ORIENTED_EDGE('',*,*,#132,.F.);
#171=ORIENTED_EDGE('',*,*,#133,.T.);
#172=ORIENTED_EDGE('',*,*,#134,.T.);
#173=ORIENTED_EDGE('',*,*,#131,.F.);
#174=ORIENTED_EDGE('',*,*,#134,.F.);
#175=ORIENTED_EDGE('',*,*,#135,.T.);
#176=ORIENTED_EDGE('',*,*,#136,.T.);
#177=ORIENTED_EDGE('',*,*,#133,.F.);
#178=ORIENTED_EDGE('',*,*,#136,.F.);
#179=ORIENTED_EDGE('',*,*,#135,.F.);
#180=ORIENTED_EDGE('',*,*,#137,.F.);
#181=ORIENTED_EDGE('',*,*,#138,.F.);
#182=ORIENTED_EDGE('',*,*,#139,.T.);
#183=ORIENTED_EDGE('',*,*,#140,.T.);
#184=ORIENTED_EDGE('',*,*,#141,.T.);
#185=ORIENTED_EDGE('',*,*,#142,.T.);
#186=ORIENTED_EDGE('',*,*,#137,.T.);
#187=ORIENTED_EDGE('',*,*,#142,.F.);
#188=ORIENTED_EDGE('',*,*,#143,.T.);
#189=ORIENTED_EDGE('',*,*,#144,.T.);
#190=ORIENTED_EDGE('',*,*,#139,.F.);
#191=ORIENTED_EDGE('',*,*,#145,.F.);
#192=ORIENTED_EDGE('',*,*,#146,.F.);
#193=ORIENTED_EDGE('',*,*,#147,.T.);
#194=ORIENTED_EDGE('',*,*,#143,.F.);
#195=ORIENTED_EDGE('',*,*,#141,.F.);
#196=ORIENTED_EDGE('',*,*,#140,.F.);
#197=ORIENTED_EDGE('',*,*,#144,.F.);
#198=ORIENTED_EDGE('',*,*,#147,.F.);
#199=ORIENTED_EDGE('',*,*,#148,.F.);
#200=ORIENTED_EDGE('',*,*,#149,.T.);
#201=ORIENTED_EDGE('',*,*,#150,.T.);
#202=ORIENTED_EDGE('',*,*,#138,.T.);
#203=ORIENTED_EDGE('',*,*,#150,.F.);
#204=ORIENTED_EDGE('',*,*,#151,.T.);
#205=ORIENTED_EDGE('',*,*,#152,.T.);
#206=ORIENTED_EDGE('',*,*,#149,.F.);
#207=ORIENTED_EDGE('',*,*,#152,.F.);
#208=ORIENTED_EDGE('',*,*,#151,.F.);
#209=ORIENTED_EDGE('',*,*,#153,.F.);
#210=ORIENTED_EDGE('',*,*,#154,.T.);
#211=ORIENTED_EDGE('',*,*,#155,.T.);
#212=ORIENTED_EDGE('',*,*,#153,.T.);
#213=ORIENTED_EDGE('',*,*,#155,.F.);
#214=ORIENTED_EDGE('',*,*,#156,.T.);
#215=ORIENTED_EDGE('',*,*,#157,.T.);
#216=ORIENTED_EDGE('',*,*,#145,.T.);
#217=ORIENTED_EDGE('',*,*,#158,.T.);
#218=ORIENTED_EDGE('',*,*,#154,.F.);
#219=ORIENTED_EDGE('',*,*,#158,.F.);
#220=ORIENTED_EDGE('',*,*,#148,.T.);
#221=ORIENTED_EDGE('',*,*,#146,.T.);
#222=ORIENTED_EDGE('',*,*,#157,.F.);
#223=ORIENTED_EDGE('',*,*,#159,.T.);
#224=ORIENTED_EDGE('',*,*,#156,.F.);
#225=ORIENTED_EDGE('',*,*,#159,.F.);
#226=SPHERICAL_SURFACE('',#264,1.25000000063);
#227=ADVANCED_FACE('',(#63),#226,.T.);
#228=ADVANCED_FACE('',(#64),#57,.T.);
#229=ADVANCED_FACE('',(#65),#26,.T.);
#230=ADVANCED_FACE('',(#66),#27,.T.);
#231=ADVANCED_FACE('',(#67),#58,.T.);
#232=ADVANCED_FACE('',(#68,#22),#24,.T.);
#233=ADVANCED_FACE('',(#69),#59,.T.);
#234=ADVANCED_FACE('',(#70),#60,.F.);
#235=ADVANCED_FACE('',(#71),#28,.T.);
#236=ADVANCED_FACE('',(#72),#61,.T.);
#237=ADVANCED_FACE('',(#73,#23),#25,.T.);
#238=ADVANCED_FACE('',(#74),#29,.F.);
#239=ADVANCED_FACE('',(#75),#62,.F.);
#240=ADVANCED_FACE('',(#76),#30,.F.);
#241=CLOSED_SHELL('',(#227,#228,#229,#230,#231,#232,#233,#234,#235,#236,
#237,#238,#239,#240));
#242=DERIVED_UNIT_ELEMENT(#245,1.);
#243=DERIVED_UNIT_ELEMENT(#514,-3.);
#244=DIMENSIONAL_EXPONENTS(0.,1.,0.,0.,0.,0.,0.);
#245=(
CONVERSION_BASED_UNIT('gram',#247)
MASS_UNIT()
NAMED_UNIT(#244)
);
#246=(
MASS_UNIT()
NAMED_UNIT(*)
SI_UNIT(.KILO.,.GRAM.)
);
#247=MASS_MEASURE_WITH_UNIT(MASS_MEASURE(0.001),#246);
#248=DERIVED_UNIT((#242,#243));
#249=MEASURE_REPRESENTATION_ITEM('density measure',
POSITIVE_RATIO_MEASURE(1.),#248);
#250=PROPERTY_DEFINITION_REPRESENTATION(#255,#252);
#251=PROPERTY_DEFINITION_REPRESENTATION(#256,#253);
#252=REPRESENTATION('material name',(#254),#511);
#253=REPRESENTATION('density',(#249),#511);
#254=DESCRIPTIVE_REPRESENTATION_ITEM('\X2\04220438043F043E0432044B0435\X0\',
'\X2\04220438043F043E0432044B0435\X0\');
#255=PROPERTY_DEFINITION('material property','material name',#521);
#256=PROPERTY_DEFINITION('material property','density of part',#521);
#257=DATE_TIME_ROLE('creation_date');
#258=CC_DESIGN_DATE_AND_TIME_ASSIGNMENT(#259,#257,(#521));
#259=DATE_AND_TIME(#260,#261);
#260=CALENDAR_DATE(2017,12,4);
#261=LOCAL_TIME(16,11,31.,#262);
#262=COORDINATED_UNIVERSAL_TIME_OFFSET(0,0,.BEHIND.);
#263=AXIS2_PLACEMENT_3D('',#360,#291,#292);
#264=AXIS2_PLACEMENT_3D('',#361,#293,#294);
#265=AXIS2_PLACEMENT_3D('',#363,#295,#296);
#266=AXIS2_PLACEMENT_3D('',#365,#297,#298);
#267=AXIS2_PLACEMENT_3D('',#366,#299,#300);
#268=AXIS2_PLACEMENT_3D('',#368,#301,#302);
#269=AXIS2_PLACEMENT_3D('',#370,#304,#305);
#270=AXIS2_PLACEMENT_3D('',#372,#306,#307);
#271=AXIS2_PLACEMENT_3D('',#374,#309,#310);
#272=AXIS2_PLACEMENT_3D('',#376,#311,#312);
#273=AXIS2_PLACEMENT_3D('',#378,#314,#315);
#274=AXIS2_PLACEMENT_3D('',#380,#316,#317);
#275=AXIS2_PLACEMENT_3D('',#382,#319,#320);
#276=AXIS2_PLACEMENT_3D('',#384,#321,#322);
#277=AXIS2_PLACEMENT_3D('',#385,#323,#324);
#278=AXIS2_PLACEMENT_3D('',#387,#325,#326);
#279=AXIS2_PLACEMENT_3D('',#434,#329,#330);
#280=AXIS2_PLACEMENT_3D('',#486,#332,#333);
#281=AXIS2_PLACEMENT_3D('',#488,#334,#335);
#282=AXIS2_PLACEMENT_3D('',#490,#337,#338);
#283=AXIS2_PLACEMENT_3D('',#492,#339,#340);
#284=AXIS2_PLACEMENT_3D('',#494,#342,#343);
#285=AXIS2_PLACEMENT_3D('',#496,#344,#345);
#286=AXIS2_PLACEMENT_3D('',#497,#346,#347);
#287=AXIS2_PLACEMENT_3D('',#499,#348,#349);
#288=AXIS2_PLACEMENT_3D('',#501,#351,#352);
#289=AXIS2_PLACEMENT_3D('',#503,#353,#354);
#290=AXIS2_PLACEMENT_3D('',#506,#357,#358);
#291=DIRECTION('axis',(0.,0.,1.));
#292=DIRECTION('refdir',(1.,0.,0.));
#293=DIRECTION('center_axis',(-6.12323399573676E-17,0.,1.));
#294=DIRECTION('ref_axis',(-1.,0.,0.));
#295=DIRECTION('center_axis',(0.,0.,-1.));
#296=DIRECTION('ref_axis',(-1.,0.,0.));
#297=DIRECTION('center_axis',(-1.22464679914735E-16,1.,0.));
#298=DIRECTION('ref_axis',(1.,1.22464679914735E-16,0.));
#299=DIRECTION('center_axis',(0.,0.,1.));
#300=DIRECTION('ref_axis',(-1.,0.,0.));
#301=DIRECTION('center_axis',(0.,0.,-1.));
#302=DIRECTION('ref_axis',(-1.,0.,0.));
#303=DIRECTION('',(0.,0.,-1.));
#304=DIRECTION('center_axis',(0.,0.,1.));
#305=DIRECTION('ref_axis',(-1.,0.,0.));
#306=DIRECTION('center_axis',(0.,0.,-1.));
#307=DIRECTION('ref_axis',(-1.,0.,0.));
#308=DIRECTION('',(-0.868243142223627,-1.0632911850058E-16,-0.49613893818329));
#309=DIRECTION('center_axis',(0.,0.,1.));
#310=DIRECTION('ref_axis',(-1.,0.,0.));
#311=DIRECTION('center_axis',(0.,0.,-1.));
#312=DIRECTION('ref_axis',(-1.,0.,0.));
#313=DIRECTION('',(-0.707106781127432,-8.65956056163098E-17,-0.707106781245663));
#314=DIRECTION('center_axis',(0.,0.,1.));
#315=DIRECTION('ref_axis',(-1.,0.,0.));
#316=DIRECTION('center_axis',(0.,0.,-1.));
#317=DIRECTION('ref_axis',(-1.,0.,0.));
#318=DIRECTION('',(0.,0.,-1.));
#319=DIRECTION('center_axis',(0.,0.,1.));
#320=DIRECTION('ref_axis',(-1.,0.,0.));
#321=DIRECTION('center_axis',(0.,0.,1.));
#322=DIRECTION('ref_axis',(-1.,0.,0.));
#323=DIRECTION('center_axis',(0.,0.,1.));
#324=DIRECTION('ref_axis',(-1.,0.,0.));
#325=DIRECTION('center_axis',(0.,0.,1.));
#326=DIRECTION('ref_axis',(-1.,0.,0.));
#327=DIRECTION('',(0.,0.,-1.));
#328=DIRECTION('',(0.,0.,-1.));
#329=DIRECTION('center_axis',(1.,0.,0.));
#330=DIRECTION('ref_axis',(0.,1.,0.));
#331=DIRECTION('',(1.,0.,0.));
#332=DIRECTION('center_axis',(0.,0.,1.));
#333=DIRECTION('ref_axis',(-1.,0.,0.));
#334=DIRECTION('center_axis',(0.,0.,-1.));
#335=DIRECTION('ref_axis',(-1.,0.,0.));
#336=DIRECTION('',(-0.866025404357867,-1.06057523942715E-16,-0.499999999006794));
#337=DIRECTION('center_axis',(0.,0.,1.));
#338=DIRECTION('ref_axis',(-1.,0.,0.));
#339=DIRECTION('center_axis',(0.,0.,-1.));
#340=DIRECTION('ref_axis',(-1.,0.,0.));
#341=DIRECTION('',(0.,0.,-1.));
#342=DIRECTION('center_axis',(0.,0.,1.));
#343=DIRECTION('ref_axis',(-1.,0.,0.));
#344=DIRECTION('center_axis',(0.,0.,1.));
#345=DIRECTION('ref_axis',(-1.,0.,0.));
#346=DIRECTION('center_axis',(0.,0.,1.));
#347=DIRECTION('ref_axis',(-1.,0.,0.));
#348=DIRECTION('center_axis',(0.,0.,-1.));
#349=DIRECTION('ref_axis',(-1.,0.,0.));
#350=DIRECTION('',(0.558660819062343,6.84162183873737E-17,0.829396219695142));
#351=DIRECTION('center_axis',(0.,0.,1.));
#352=DIRECTION('ref_axis',(-1.,0.,0.));
#353=DIRECTION('center_axis',(0.,0.,-1.));
#354=DIRECTION('ref_axis',(-1.,0.,0.));
#355=DIRECTION('',(0.,0.,1.));
#356=DIRECTION('',(0.,0.,1.));
#357=DIRECTION('center_axis',(0.,0.,1.));
#358=DIRECTION('ref_axis',(-1.,0.,0.));
#359=DIRECTION('',(0.854236146761294,1.04613756284719E-16,0.519885184984547));
#360=CARTESIAN_POINT('',(0.,0.,0.));
#361=CARTESIAN_POINT('Origin',(0.,0.,-11.25178956703));
#362=CARTESIAN_POINT('',(1.25000000063,0.,-11.25178956703));
#363=CARTESIAN_POINT('Origin',(0.,0.,-11.25178956703));
#364=CARTESIAN_POINT('',(7.6540424985286E-17,9.37349864636086E-33,-12.50178956766));
#365=CARTESIAN_POINT('Origin',(0.,0.,-11.25178956703));
#366=CARTESIAN_POINT('Origin',(0.,0.,0.));
#367=CARTESIAN_POINT('',(1.25000000063,0.,2.598210433347));
#368=CARTESIAN_POINT('Origin',(0.,0.,2.598210433347));
#369=CARTESIAN_POINT('',(1.25000000063,1.53080849970572E-16,0.));
#370=CARTESIAN_POINT('Origin',(0.,0.,2.798210432537));
#371=CARTESIAN_POINT('',(1.949999998118,0.,2.998210431726));
#372=CARTESIAN_POINT('Origin',(0.,0.,2.998210431726));
#373=CARTESIAN_POINT('',(1.599999999374,1.95943487786914E-16,2.798210432537));
#374=CARTESIAN_POINT('Origin',(0.,0.,3.148210433321));
#375=CARTESIAN_POINT('',(2.250000001257,0.,3.298210434915));
#376=CARTESIAN_POINT('Origin',(0.,0.,3.298210434915));
#377=CARTESIAN_POINT('',(2.099999999687,2.57175827782613E-16,3.148210433321));
#378=CARTESIAN_POINT('Origin',(0.,0.,0.));
#379=CARTESIAN_POINT('',(2.250000001257,0.,5.498210434876));
#380=CARTESIAN_POINT('Origin',(0.,0.,5.498210434876));
#381=CARTESIAN_POINT('',(2.250000001257,2.75545529962093E-16,0.));
#382=CARTESIAN_POINT('Origin',(0.,0.,5.498210434876));
#383=CARTESIAN_POINT('',(1.300000000634,0.,5.498210434876));
#384=CARTESIAN_POINT('Origin',(0.,0.,5.498210434876));
#385=CARTESIAN_POINT('Origin',(0.,0.,0.));
#386=CARTESIAN_POINT('',(1.300000000634,1.59204083966799E-16,9.838402814439));
#387=CARTESIAN_POINT('Origin',(0.,0.,9.838402814439));
#388=CARTESIAN_POINT('',(1.300000000634,3.40655507390081E-17,6.54821043489));
#389=CARTESIAN_POINT('',(1.300000000634,1.59204083966799E-16,0.));
#390=CARTESIAN_POINT('',(1.219631092441,0.45,6.09821043489));
#391=CARTESIAN_POINT('Ctrl Pts',(1.300000000634,-9.10729824887824E-17,6.54821043489));
#392=CARTESIAN_POINT('Ctrl Pts',(1.300000000634,0.0570015772137465,6.54821043489));
#393=CARTESIAN_POINT('Ctrl Pts',(1.29588484556888,0.117488494420812,6.53672275352134));
#394=CARTESIAN_POINT('Ctrl Pts',(1.28102785061465,0.228229545087874,6.490648799006));
#395=CARTESIAN_POINT('Ctrl Pts',(1.27047309571118,0.278519071252045,6.45608746670585));
#396=CARTESIAN_POINT('Ctrl Pts',(1.25043398484426,0.357898636150543,6.37670790180735));
#397=CARTESIAN_POINT('Ctrl Pts',(1.23958821289463,0.392443378258474,6.32642690694321));
#398=CARTESIAN_POINT('Ctrl Pts',(1.22405237684394,0.43850490604483,6.21571776707001));
#399=CARTESIAN_POINT('Ctrl Pts',(1.21963109244083,0.45,6.15524304821263));
#400=CARTESIAN_POINT('Ctrl Pts',(1.21963109244083,0.45,6.09821043489));
#401=CARTESIAN_POINT('',(1.300000000634,9.91176810881384E-17,5.64821043489));
#402=CARTESIAN_POINT('Ctrl Pts',(1.21963109244083,0.45,6.09821043489));
#403=CARTESIAN_POINT('Ctrl Pts',(1.21963109244083,0.45,6.04117782156737));
#404=CARTESIAN_POINT('Ctrl Pts',(1.22405237684394,0.43850490604483,5.98070310270999));
#405=CARTESIAN_POINT('Ctrl Pts',(1.23958821289463,0.392443378258474,5.86999396283679));
#406=CARTESIAN_POINT('Ctrl Pts',(1.25043398484426,0.357898636150543,5.81971296797265));
#407=CARTESIAN_POINT('Ctrl Pts',(1.27047309571118,0.278519071252046,5.74033340307415));
#408=CARTESIAN_POINT('Ctrl Pts',(1.28102785061465,0.228229545087874,5.705772070774));
#409=CARTESIAN_POINT('Ctrl Pts',(1.29588484556888,0.117488494420812,5.65969811625866));
#410=CARTESIAN_POINT('Ctrl Pts',(1.300000000634,0.0570015772137467,5.64821043489));
#411=CARTESIAN_POINT('Ctrl Pts',(1.300000000634,3.90312782094782E-17,5.64821043489));
#412=CARTESIAN_POINT('',(1.300000000634,1.59204083966799E-16,0.));
#413=CARTESIAN_POINT('',(1.21963109244083,-0.45,6.09821043489));
#414=CARTESIAN_POINT('Ctrl Pts',(1.300000000634,3.90312782094782E-17,5.64821043489));
#415=CARTESIAN_POINT('Ctrl Pts',(1.300000000634,-0.0570015772137466,5.64821043489));
#416=CARTESIAN_POINT('Ctrl Pts',(1.29588484556888,-0.117488494420812,5.65969811625866));
#417=CARTESIAN_POINT('Ctrl Pts',(1.28102785061465,-0.228229545087874,5.705772070774));
#418=CARTESIAN_POINT('Ctrl Pts',(1.27047309571118,-0.278519071252046,5.74033340307415));
#419=CARTESIAN_POINT('Ctrl Pts',(1.25043398484426,-0.357898636150543,5.81971296797265));
#420=CARTESIAN_POINT('Ctrl Pts',(1.23958821289463,-0.392443378258474,5.86999396283679));
#421=CARTESIAN_POINT('Ctrl Pts',(1.22405237684394,-0.43850490604483,5.98070310270999));
#422=CARTESIAN_POINT('Ctrl Pts',(1.21963109244083,-0.45,6.04117782156737));
#423=CARTESIAN_POINT('Ctrl Pts',(1.21963109244083,-0.45,6.09821043489));
#424=CARTESIAN_POINT('Ctrl Pts',(1.21963109244083,-0.45,6.09821043489));
#425=CARTESIAN_POINT('Ctrl Pts',(1.21963109244083,-0.45,6.15524304821263));
#426=CARTESIAN_POINT('Ctrl Pts',(1.22405237684394,-0.43850490604483,6.21571776707002));
#427=CARTESIAN_POINT('Ctrl Pts',(1.23958821289463,-0.392443378258474,6.32642690694321));
#428=CARTESIAN_POINT('Ctrl Pts',(1.25043398484426,-0.357898636150543,6.37670790180735));
#429=CARTESIAN_POINT('Ctrl Pts',(1.27047309571118,-0.278519071252046,6.45608746670585));
#430=CARTESIAN_POINT('Ctrl Pts',(1.28102785061465,-0.228229545087874,6.490648799006));
#431=CARTESIAN_POINT('Ctrl Pts',(1.29588484556888,-0.117488494420812,6.53672275352134));
#432=CARTESIAN_POINT('Ctrl Pts',(1.300000000634,-0.0570015772137467,6.54821043489));
#433=CARTESIAN_POINT('Ctrl Pts',(1.300000000634,-9.10729824887824E-17,6.54821043489));
#434=CARTESIAN_POINT('Origin',(0.,0.,6.09821043489));
#435=CARTESIAN_POINT('',(0.5750000005491,0.,5.64821043489));
#436=CARTESIAN_POINT('',(0.5750000005491,5.25558302688772E-17,6.54821043489));
#437=CARTESIAN_POINT('Ctrl Pts',(0.5750000005491,3.46944695195361E-17,6.54821043489));
#438=CARTESIAN_POINT('Ctrl Pts',(0.5750000005491,0.0594474695072974,6.54821043489));
#439=CARTESIAN_POINT('Ctrl Pts',(0.565088210188332,0.121064335780867,6.53574355792799));
#440=CARTESIAN_POINT('Ctrl Pts',(0.529580692608033,0.231355861961088,6.4888077389126));
#441=CARTESIAN_POINT('Ctrl Pts',(0.504208762567006,0.280151753974425,6.45445478398347));
#442=CARTESIAN_POINT('Ctrl Pts',(0.452948800707475,0.357304929213976,6.37730160874392));
#443=CARTESIAN_POINT('Ctrl Pts',(0.422812697847382,0.391055177756059,6.32859601252345));
#444=CARTESIAN_POINT('Ctrl Pts',(0.386876976810768,0.425732490227473,6.24695119361085));
#445=CARTESIAN_POINT('Ctrl Pts',(0.376455107624711,0.43473252294639,6.2182949371081));
#446=CARTESIAN_POINT('Ctrl Pts',(0.361981540341956,0.446863443194865,6.15920205350638));
#447=CARTESIAN_POINT('Ctrl Pts',(0.357945527463978,0.45,6.12876274966875));
#448=CARTESIAN_POINT('Ctrl Pts',(0.357945527463978,0.45,6.09821043489));
#449=CARTESIAN_POINT('Ctrl Pts',(0.357945527463978,0.45,6.06765812011125));
#450=CARTESIAN_POINT('Ctrl Pts',(0.361981540341956,0.446863443194865,6.03721881627362));
#451=CARTESIAN_POINT('Ctrl Pts',(0.376455107624711,0.43473252294639,5.9781259326719));
#452=CARTESIAN_POINT('Ctrl Pts',(0.386876976810768,0.425732490227473,5.94946967616915));
#453=CARTESIAN_POINT('Ctrl Pts',(0.422812697847382,0.391055177756059,5.86782485725655));
#454=CARTESIAN_POINT('Ctrl Pts',(0.452948800707475,0.357304929213976,5.81911926103608));
#455=CARTESIAN_POINT('Ctrl Pts',(0.504208762567006,0.280151753974425,5.74196608579653));
#456=CARTESIAN_POINT('Ctrl Pts',(0.529580692608033,0.231355861961088,5.7076131308674));
#457=CARTESIAN_POINT('Ctrl Pts',(0.565088210188331,0.121064335780867,5.66067731185201));
#458=CARTESIAN_POINT('Ctrl Pts',(0.5750000005491,0.0594474695072972,5.64821043489));
#459=CARTESIAN_POINT('Ctrl Pts',(0.5750000005491,-8.23993651088983E-17,
5.64821043489));
#460=CARTESIAN_POINT('',(0.357945527463978,-0.45,6.09821043489));
#461=CARTESIAN_POINT('Ctrl Pts',(0.5750000005491,-8.23993651088983E-17,
5.64821043489));
#462=CARTESIAN_POINT('Ctrl Pts',(0.5750000005491,-0.0594474695072975,5.64821043489));
#463=CARTESIAN_POINT('Ctrl Pts',(0.565088210188331,-0.121064335780867,5.66067731185201));
#464=CARTESIAN_POINT('Ctrl Pts',(0.529580692608033,-0.231355861961088,5.7076131308674));
#465=CARTESIAN_POINT('Ctrl Pts',(0.504208762567006,-0.280151753974426,5.74196608579653));
#466=CARTESIAN_POINT('Ctrl Pts',(0.452948800707475,-0.357304929213976,5.81911926103608));
#467=CARTESIAN_POINT('Ctrl Pts',(0.422812697847382,-0.391055177756059,5.86782485725655));
#468=CARTESIAN_POINT('Ctrl Pts',(0.386876976810768,-0.425732490227473,5.94946967616915));
#469=CARTESIAN_POINT('Ctrl Pts',(0.376455107624711,-0.43473252294639,5.9781259326719));
#470=CARTESIAN_POINT('Ctrl Pts',(0.361981540341956,-0.446863443194865,6.03721881627362));
#471=CARTESIAN_POINT('Ctrl Pts',(0.357945527463978,-0.45,6.06765812011125));
#472=CARTESIAN_POINT('Ctrl Pts',(0.357945527463978,-0.45,6.09821043489));
#473=CARTESIAN_POINT('',(0.,-0.45,6.09821043489));
#474=CARTESIAN_POINT('Ctrl Pts',(0.357945527463978,-0.45,6.09821043489));
#475=CARTESIAN_POINT('Ctrl Pts',(0.357945527463978,-0.45,6.12876274966875));
#476=CARTESIAN_POINT('Ctrl Pts',(0.361981540341956,-0.446863443194865,6.15920205350638));
#477=CARTESIAN_POINT('Ctrl Pts',(0.376455107624712,-0.43473252294639,6.2182949371081));
#478=CARTESIAN_POINT('Ctrl Pts',(0.386876976810768,-0.425732490227473,6.24695119361085));
#479=CARTESIAN_POINT('Ctrl Pts',(0.422812697847383,-0.391055177756059,6.32859601252345));
#480=CARTESIAN_POINT('Ctrl Pts',(0.452948800707475,-0.357304929213976,6.37730160874392));
#481=CARTESIAN_POINT('Ctrl Pts',(0.504208762567006,-0.280151753974425,6.45445478398347));
#482=CARTESIAN_POINT('Ctrl Pts',(0.529580692608033,-0.231355861961088,6.4888077389126));
#483=CARTESIAN_POINT('Ctrl Pts',(0.565088210188332,-0.121064335780867,6.53574355792799));
#484=CARTESIAN_POINT('Ctrl Pts',(0.5750000005491,-0.0594474695072973,6.54821043489));
#485=CARTESIAN_POINT('Ctrl Pts',(0.5750000005491,3.46944695195361E-17,6.54821043489));
#486=CARTESIAN_POINT('Origin',(0.,0.,10.11264419176));
#487=CARTESIAN_POINT('',(2.250000001257,0.,10.38688556908));
#488=CARTESIAN_POINT('Origin',(0.,0.,10.38688556908));
#489=CARTESIAN_POINT('',(1.775000000945,2.17374806964384E-16,10.11264419176));
#490=CARTESIAN_POINT('Origin',(0.,0.,0.));
#491=CARTESIAN_POINT('',(2.250000001257,0.,12.49821043489));
#492=CARTESIAN_POINT('Origin',(0.,0.,12.49821043489));
#493=CARTESIAN_POINT('',(2.250000001257,2.75545529962093E-16,0.));
#494=CARTESIAN_POINT('Origin',(0.,0.,12.49821043489));
#495=CARTESIAN_POINT('',(1.850000000456,0.,12.49821043489));
#496=CARTESIAN_POINT('Origin',(0.,0.,12.49821043489));
#497=CARTESIAN_POINT('Origin',(0.,0.,11.55176838638));
#498=CARTESIAN_POINT('',(0.5750000005491,0.,10.60532633787));
#499=CARTESIAN_POINT('Origin',(0.,0.,10.60532633787));
#500=CARTESIAN_POINT('',(1.212500000503,1.48488424458216E-16,11.55176838638));
#501=CARTESIAN_POINT('Origin',(0.,0.,0.));
#502=CARTESIAN_POINT('',(0.5750000005491,0.,5.074285005553));
#503=CARTESIAN_POINT('Origin',(0.,0.,5.074285005553));
#504=CARTESIAN_POINT('',(0.5750000005491,7.04171910182182E-17,0.));
#505=CARTESIAN_POINT('',(0.5750000005491,7.04171910182182E-17,0.));
#506=CARTESIAN_POINT('Origin',(0.,0.,4.907841599377));
#507=CARTESIAN_POINT('',(0.,0.,4.724341980097));
#508=CARTESIAN_POINT('',(0.3015127421074,3.69246614523969E-17,4.907841599377));
#509=UNCERTAINTY_MEASURE_WITH_UNIT(LENGTH_MEASURE(0.01),#513,
'DISTANCE_ACCURACY_VALUE',
'Maximum model space distance between geometric entities at asserted c
onnectivities');
#510=UNCERTAINTY_MEASURE_WITH_UNIT(LENGTH_MEASURE(0.01),#513,
'DISTANCE_ACCURACY_VALUE',
'Maximum model space distance between geometric entities at asserted c
onnectivities');
#511=(
GEOMETRIC_REPRESENTATION_CONTEXT(3)
GLOBAL_UNCERTAINTY_ASSIGNED_CONTEXT((#509))
GLOBAL_UNIT_ASSIGNED_CONTEXT((#513,#515,#516))
REPRESENTATION_CONTEXT('','3D')
);
#512=(
GEOMETRIC_REPRESENTATION_CONTEXT(3)
GLOBAL_UNCERTAINTY_ASSIGNED_CONTEXT((#510))
GLOBAL_UNIT_ASSIGNED_CONTEXT((#513,#515,#516))
REPRESENTATION_CONTEXT('','3D')
);
#513=(
LENGTH_UNIT()
NAMED_UNIT(*)
SI_UNIT(.MILLI.,.METRE.)
);
#514=(
LENGTH_UNIT()
NAMED_UNIT(*)
SI_UNIT(.CENTI.,.METRE.)
);
#515=(
NAMED_UNIT(*)
PLANE_ANGLE_UNIT()
SI_UNIT($,.RADIAN.)
);
#516=(
NAMED_UNIT(*)
SI_UNIT($,.STERADIAN.)
SOLID_ANGLE_UNIT()
);
#517=SHAPE_DEFINITION_REPRESENTATION(#518,#519);
#518=PRODUCT_DEFINITION_SHAPE('',$,#521);
#519=SHAPE_REPRESENTATION('',(#263),#511);
#520=DESIGN_CONTEXT('part definition',#525,'design');
#521=PRODUCT_DEFINITION('3D_1010191100401_CESM-0.50_V1.0',
'3D_1010191100401_CESM-0.50_V1.0',#522,#520);
#522=PRODUCT_DEFINITION_FORMATION('2LAST_VERSION',$,#527);
#523=PRODUCT_RELATED_PRODUCT_CATEGORY('3D_1010191100401_CESM-0.50_V1.0',
'3D_1010191100401_CESM-0.50_V1.0',(#527));
#524=APPLICATION_PROTOCOL_DEFINITION('international standard',
'ap203_configuration_controlled_3d_design_of_mechanical_parts_and_asse
mblies_mim_lf',2004,#525);
#525=APPLICATION_CONTEXT(
'Configuration Controlled 3D Design of Mechanical Parts and Assemblies');
#526=MECHANICAL_CONTEXT('part definition',#525,'mechanical');
#527=PRODUCT('3D_1010191100401_CESM-0.50_V1.0',
'3D_1010191100401_CESM-0.50_V1.0',$,(#526));
#528=PRESENTATION_STYLE_ASSIGNMENT((#529));
#529=SURFACE_STYLE_USAGE(.BOTH.,#532);
#530=SURFACE_STYLE_RENDERING_WITH_PROPERTIES($,#536,(#531));
#531=SURFACE_STYLE_TRANSPARENT(0.);
#532=SURFACE_SIDE_STYLE('',(#533,#530));
#533=SURFACE_STYLE_FILL_AREA(#534);
#534=FILL_AREA_STYLE('',(#535));
#535=FILL_AREA_STYLE_COLOUR('',#536);
#536=COLOUR_RGB('',0.749019607843137,0.749019607843137,0.749019607843137);
ENDSEC;
END-ISO-10303-21;
